Vrzic.com

Leb i sol Lyrics



Find us on Twitter

Tekstovi Leb i sol Lyrics Akordi

Sheet Music Plus Guitar Tabs

Tekst Kao kakao Akordi

Riff 1. intro distorted
e------------------------------------------------------
b------------------------------------------------------
g------------------------------------------------------
d---------------------2--2----------------------------- x4
a------------------2--------3--2--0--------------------
e---3--2--3--2--3--0-----------------------------------

i onda...
e------------------------------------------------------
b------------------------------------------------------
g------------------------------------------------------
d-------------------2----------------------------------
a-------------------0----------------------------------
e---3--2--3--2--3--------------------------------------

verse riff ili samo A C D

e------------------------------------------------------
b------------------------------------------------------
g------------------------------------------------------
d---------7-----5----4---------------------------------
a----5----5-----7----5---------------------------------
e------------------------------------------------------
"sve je ....mutno

Chorus
e------------------------------------------------------
b------------------------------------------------------
g------------------------------------------------------
d----2----6---6---------6----------8--------4---------- x4
a----2----7---7---------7--sss-----9--sss---5----------
e----0----0---0---------0------------------------------
"kao kao kakao....


Reci

Ja sam kao frajer
Ti si kao dama
Mi smo kao par
MI smo kao dabar par

sve je kao...

Djeca kao ne znaju
Starci kao mudruju
Vojnici kao budni
Zene kao vjerne

sve je mutno

kao, kao kakao
kao, kao kakao
kao, kao kakao
cijeli svijet je
kao kakao

Mi smo kao zivi
Mi smo kao zajedno
Mi se kao volimo
Mi kao nesto sviramo

sve je mutno...

Makedonske pesme Tekstovi

Starogradske pesme Tekstovi

Zeljko Samardzic Akordi/Tekstovi

Sheet Music Plus Homepage

Dado Topic Lyrics

Crvena jabuka Lyrics

Haris Dzinovic

Travel, Phones, Music