Vrzic.com

Crvena jabuka



Find us on Twitter

Crvena jabuka Lyrics Akordi Tab

The iPad in the Music Studio
Crvena jabuka Akordi/Tab:

Tekst Pesme Ostani


G D G Am D
Ostani, ostani jos ove noci,
Am D
Lakse ce mi san na oci
Am D C D G
Budi drug mi ti, hajde ostani.

Ostani, vidi kisa na polju sapce,
Jos sat dva i ona stat ce,
Budi dobra ti, hajde ostani.

C D
Pobjeci sad od svega zelim,
G Em
Da ovaj tren sa tobom dijelim,
C D C D G
Svi su zaspali, hajde ostani.

Ostani vidi oci ti sjaje u mraku
I tvoje kose miris u zraku
Budi moja ti, hajde ostani.
SOLO:

-------------------------------------------------------
----------------------------------------12--13--12-----
----------------------------11--12--14-----------------
--------------------12--14-----------------------------
-------12--14--15--------------------------------------
---15--------------------------------------------------
--------------------------------------------12----------
----------------------15-15-15--13--12----------15---13-
-14--12--11/12\11-----------------------14--------------
------------------12------------------------------------
--------------------------------------------------------
--------------------------------------------------------
------------------------12------------------------------
-12------------------------15-13-12----15-13-12---------
-----14--12--11---------------------14----------14-12---
----------------14--12----------------------------------
--------------------------------------------------------
--------------------------------------------------------
----12----12---------------------------------------|
----13----13----12--------------12-----------------|
--------------------------14----12-----------------|
--------------------------------12-----------------|
---------------------------------------------------|
---------------------------------------------------|

Crvena jabuka Akordi

Crvena Jabuka Ostani

Sheet Music Plus Homepage

Haris Dzinovic

Boris Novkovic Tekstovi

Vlado Georgiev

Travel,Phones,Music