Vrzic.com




Find us on Twitter

Sheryl Crow Lyrics

Sheryl Crow -- 100 Miles from Memphis

Sheryl Crow -- 100 Miles from Memphis

Lyrics Sheryl Crowe

Sheet Music Plus Guitar Tabs

Strong Enough Lyrics

D G B A
God I feel like hell tonight, tears ....
This is the main riff just keep playing this until the chorus.
|---2-----0h2------------------------------------------------------------
|---3----------------------3---2-----------------------------------------
|---2---2----------0-----0-----2-----------------------------------------
|-0---0--------0---3---3-------2-----------------------------------------
|--------------2-2---2-------0-------------------------------------------
|------------3-----------------------------------------------------------


Em D G A B C G A
Lie, to me, I promise I'll believe...
This is the chorus, when finished playing this go back to the melody.
|--0--0--0-0-0--0--0--0--0-0-0--0--0--0--0-0-0-0--0-0--0--0-0--0---------
|--0--0--0-0-0--0--0--0--0-0-0--2--3--3--3-3-3-3--1-1--0--0-0--2---------
|--0--0--0-0-0--0--0--0--0-0-0--2--4--4--4-4-4-4--0-0--0--0-0--2---------
|--2--2--2-2-2--0--0--0--0-0-0--2--4--4--4-4-4-4--2-2--0--0-0--2---------
|--2--2--2-2-2--0--2--2--2-2-2--0--1--1--1-1-1-1--3-3--2--2-2--0---------
|--0--0--0-0-0--2--3--3--3-3-3--0--0--0--0-0-0-0--0-0--3--3-3--0---------


Ce fichier a ^t^ cr^e par Tab 1.1

A few minor alterations to J Lee file
My version reads as below. This sounds much better
Standard tuning. Good Luck. Nick King 19/08/2003

D G B A
God I feel like hell tonight, tears ....
This is the main riff just keep playing this until the chorus.
|---2-----0h2------------------------------------------------------------
|---3----------0---3-------3---2-----------------------------------------
|---2---2----------------0-----2-----------------------------------------
|-0---0--------0---4---4-------2-----------------------------------------
|----------------2---2-------0-------------------------------------------
|------------3-----------------------------------------------------------


Em D G A Bm C G A
Lie, to me, I promise I'll believe...
This is the chorus, when finished playing this go back to the melody.
|--0--0--0-0-0--0--0--0--0-0-0--0--0--0--0-0-0-0--0-0--0--0-0--0---------
|--0--0--0-0-0--0--0--0--0-0-0--2--3--3--3-3-3-3--1-1--0--0-0--2---------
|--0--0--0-0-0--0--0--0--0-0-0--2--4--4--4-4-4-4--0-0--0--0-0--2---------
|--2--2--2-2-2--0--0--0--0-0-0--2--4--4--4-4-4-4--2-2--0--0-0--2---------
|--2--2--2-2-2--0--2--2--2-2-2--0--1--1--1-1-1-1--3-3--2--2-2--0---------
|--0--0--0-0-0--2--3--3--3-3-3--0--0--0--0-0-0-0--0-0--3--3-3--0---------

Sheryl Crow Sheet Music - Lyrics

Sheryl Crow -- Summer Day

Sheryl Crow -- Summer Day

HOPE FLOATS SOUNDTRACK

I FEEL HAPPY

I SHALL BELIEVE

Sheet Music Plus Homepage

Snow Patrol Lyrics

The Allman Brothers Band

Nirvana Lyrics

SEARCH BY ARTIST OR COMPOSER

Travel,Phones,Music