Vrzic.com




Find us on Twitter

Sheryl Crow Lyrics

Sheryl Crow -- 100 Miles from Memphis

Sheryl Crow -- 100 Miles from Memphis

Lyrics Sheryl Crowe

Sheet Music Plus Guitar Tabs

Soak Up the Sun Lyrics

Intro (also intro to each verse)
e|-------------77-55--|
b|--------9----77-55--|
g|----------9--77-55--|
d|--9-7-9------99-77--|x2
a|-------------99-77--|
e|-------------77-55--|


Verses (only with singing, when not singing,
play the intro part)
e|-------------77-55--|
b|-------------77-55--|
g|-------------77-55--|
d|--9-7-9------99-77--|
a|-------------99-77--|
e|-------------77-55--|


Chorus x2
e|--------------------------------|
b|--------------------------------|
g|--------------------------------|
d|--222222222222--999999999999----|
a|--222222222222--999999999999----|
e|--000000000000--777777777777----|

e|---------------------------------|
b|---------------------------------|
g|---------------------------------|
d|--444--666--777777--999999999999-|
a|--444--666--777777--999999999999-|
e|--222--444--555555--777777777777-|


Bridge
e|-----------------------------|
b|-----------------------------|
g|--9-9---8-8------------------|
d|--9-9---8-8---12-12---11-11--|x2
a|--7-7---6-6---12-12---11-11--|
e|--7-7---6-6---10-10----9--9--|


then this then back to chorus until end
e|----------------|
b|----------------|
g|----------------|
d|--777--999------|
a|--777--999------|
e|--555--777------|

Sheryl Crow Sheet Music - Lyrics

Sheryl Crow -- Summer Day

Sheryl Crow -- Summer Day

IF IT MAKES YOU HAPPY

IS IT LIKE TODAY

IT DON'T HURT

Sheet Music Plus Homepage

Snow Patrol Lyrics

The Allman Brothers Band

Nirvana Lyrics

SEARCH BY ARTIST OR COMPOSER

Travel,Phones,Music