Vrzic.com




Find us on Twitter

Lyrics Pantera

Sheet Music Plus Guitar Tabs

Frigging hostile Tab

Riff 1A
D-----------------------------------------------------------4--
A-6----------4/6----------4/6----------4/6------------4-3-2-2--
E-4-444-444--2/4-444-444--2/4-444-444--2/4--44-44-44--2-1-0----

Riff 1B
D-----------------------------------------4--
A-----------------------------------4-3-2-2--
E-44444444444444444444444444444444--2-1-0----

Riff 1 ending - Bend and slide note on the 16th fret of E string very fast.

Riff 2
D-6--4---------6--4---------6--4-----------------------
A-4--2--2--4---4--2--2--4---4--2--2--4-5-6-------------
E-------0--2---------0--2---------0--2-3-4-44444444----
(This part is played twice each time but the second time you play it don't do 
the shredding part.)

Riff 3
A------4-3-4--
E-0000-2-1-2--

Riff 3 ending
A------4-3-4-3-2--
E-0000-2-1-2-1-0--

Riff 4
A-4-5-6-------4-5-6-------3-4-5-6---
E-2-3-4-------2-3-4-------1-2-3-4---

Song order:
Riff 1A 4x w/ ending
Riff 2 twice
Riff 3 6x w/ ending
Riff 1A 4x w/ ending
Riff 2 twice
Riff 3 6x w/ ending
Riff 1B twice
Riff 2 twice
Riff 1A 4x w/ ending
Riff 2 twice
Riff 5 once

Pantera Lyrics Tab/Sheet Music

Pantera
Pantera - Cowboys from Hell

Sheet Music Plus Homepage

Alice Cooper

James Taylor Lyrics

Bryan Adams Lyrics

Travel, Phones, Music