Vrzic.com




Find us on Twitter

Merima Njegomir Tekstovi Akordi

The iPad in the Music Studio

Merima Njegomir Lyrics

Sto me ne pogledas Tekst

Uvod:
Dm A A C7 F
___ _____
___ _______ _____ _____ ___________
E|----------5------|-------------|-------------------------|---------|
H|------5-6---8--6-|5------------|---------------15-13-----|---------|
D|7---7------------|-------------|12----12-14-15--------15-|14-------|
G|--7--------------|-------14-15-|---12--------------------|---------|
A|-----------------|-------------|-------------------------|---------|
E|-----------------|-------------|-------------------------|---------|

Gm A7 Dm
___ ___________
E|------------|--------------------|
H|8--8-6-5----|------------12------|
D|------------|15-12-14-15----15---|
G|------------|--------------------|
A|------------|--------------------|
E|------------|--------------------|

B A A7

___3___ ___3___ ___3___ ___3___
E|10-8----8-----------------------|------------|
H|-----11---11-10-11-10-8-10-8----|------------|
D|-----------------------------10-|9------6--5-|
G|--------------------------------|------------|
A|--------------------------------|-----7------|
E|--------------------------------|------------|

Dm
________
E|---------------------------|
H|-----18-17----15/17\15-15--|
D|7----------19--------------|
G|--19-----------------------|
A|---------------------------|
E|---------------------------|

Dm A7 Dm
Breza sam slomljena,
A7 Dm
srna sam ranjena,
Gm C7 F
casa ispijena
A7 Dm
pa zaboravljena.

Ref.(2x)
C C7 F
Sto me ne pogledas?
C C7 F D7
Sto mi jos prkosis?
Gm Dm
Zar se mojim bolom
A7 Dm D7
pred drugom ponosis?
Gm Dm
Zar se mojim bolom
A7 Dm
pred drugom ponosis?

Zora sam plamena,
nisam od kamena,
ruza ostavljena
pa zaboravljena.

Ref.(2x)
Sto me ne ne pogledas?
Sto mi jos prkosis?
Zar se mojim bolom
pred drugom ponosis?

Zovem te danima,
al' tebe ne zanima:
sto sam poljubljena
pa zaboravljena.

Ref.(2x)
Sto me ne ne pogledas?
Sto mi jos prkosis?
Zar se mojim bolom
pred drugom ponosis?

Merima Njegomir Akordi

Starogradske pesme Akordi/Tekstovi

Makedonske pesme Akordi/Tekstovi

Sheet Music Plus Homepage

Bosanske narodne pesme

Halid Beslic

Toma Zdravkovic

Travel, Phones, Music