Vrzic.com

The Eagles Lyrics



Find us on Twitter

Lyrics The Eagles


Jam With The Eagles

The New Eagles Complete

Sheet Music Plus Guitar Tabs

Lyrics Life in the Fast Lane

Life in the Fast Lane
Eagles
Written by:
Don Henley
Glen Fry annd Joe Walsh




|-----------------------|-----------------------|---------------------------|---
|-----------------------|-----------------------|---------------------------|---
|-----------------------|-----------------------|---------------------------|---
|-----7---5-------------|-----7---5-------------|-----7---5-----------------|---
|-5h7---7---7-5---------|-5h7---7---7-5---------|-5h7---7---7-5---------5-7-|---
|---------------7p5-3-0-|---------------7p5-3/4-|---------------7p5-3-0-----|---



------------------|-----------------------|-----------------------|-------------
------------------|-----------------------|-----------------------|-------------
------------------|-----------------------|-----------------------|-------------
7---5-------------|-----7---5-------------|-----7---5-------------|-------------
--7---7-5---------|-5h7---7---7-5---------|-5h7---7---7-5---------|-------------
----------7\5-3b4-|---------------7p5-3-0-|---------------7p5-3b4-|-------------



--------------------------|-----------------------||---------------------|------
--------------------------|-----------------------||---------------------|------
--------------------------|-----------------------||---------------------|------
----7---5-----------------|-7---5-----------------||---5p2-----2---------|------
5h7---7---7-5---------5-7-|---7---7-5-------------||-------(3)---5/7-7-7-|------
--------------7p5-3-0-----|-----------7\5-3-5-6-7-||-0-------------------|------



----------------------|-----------------------|-------------------||------------
----------------------|-----------------------|-------------------||------------
----------------------|-----------------------|-------------------||------------
--5p2-----2---0-------|-5p2---x-2-------------|---5p2---2-0-------||------------
------x-2-------2-----|-----x-----5/7---7---x-|-x-----x-----2-----||------------
0-----------------3/4-|-------------------0---|---------------3/4-||------------

The Eagles Lyrics

The Eagles - Acoustic

The Eagles - Acoustic

The Eagles Lyrics
Get Over It Lyrics, Tab

LEARN TO BE STILL Lyrics

Life in the Fast Lane Lyrics

Take It Easy Lyrics

Already Gone Lyrics, Tab

Best Of My Love Lyrics

Desperado Lyrics

Doolin Dalton Lyrics

Sheet Music Guitar

Sheet Music Plus Homepage

Van Morrison

Top 10 Songs Lyrics

Travel, Phones, Music