Vrzic.com

Svetlana Raznjatovic Tekstovi Pesama



Find us on Twitter

Ceca Lyrics Akordi

Sheet Music Plus Guitar Tabs
Svetlana Raznjatovic Lyrics Akordi

Ceca Sto Put Sam Se Zaklela Tekst

SOLO:
------------------------------------------------
-------------------------------------------10---
--------------------------9-10--9----12-10----10
10-9----9-10-12-----12------------12------------
-----12---------12-----12-----------------------
------------------------------------------------

------------------------------------------------
------------10----------------------------------
9-----12-10----10--9----------------------------
--12-----------------12-10-9----9-10-12---------
-----------------------------12---------12------
------------------------------------------------

------------------------------------------------
------------------------10----------------------
------9-10--9-----12-10----10--9----9-----------
12------------12-----------------12---12-10-12--
---12-------------------------------------------
------------------------------------------------
Dm C F
Kol'ko sam te volela
C Dm
sto put sam te proklela
Am Dm
i za dugo cekanje
Am Dm
i za noci besane

REFREN:2X
C Dm
Sto put sam se zaklela
C Dm
da sam tebe volela
C Dm
i jos sto put zakleti
C Dm
da te necu voleti

SOLO:
Dm C F
Ako ces me varati
C Dm
ja ti necu prastati
Am Dm
srce ce me boleti
Am Dm
ali cu ti vracati
REFREN:2X
SOLO:

Dm C F
Srce cu ti slomiti
C Dm
jer cu drugog ljubiti
Am Dm
a ti gledaj kako znas
Am Dm
da me vise ne varas
REFREN:2x
SOLO zadnji:
-------------------------------
-------------------------------
-------------------------------
10-9----9-10-12-----12-12-10-12
-----12---------12-------------
-------------------------------

Tekstovi Pesama Ceca Akordi

Ja jos spavam u tvojoj majici

Ceca Kad bi bio ranjen

Koza pamti

Sheet Music Plus Homepage

Zeljko Samardzic

Galija | Starogradske pesme

Travel, Phones, Music