Vrzic.com

Svetlana Raznjatovic Tekstovi Pesama



Find us on Twitter

Ceca Lyrics Akordi

Sheet Music Plus Guitar Tabs
Svetlana Raznjatovic Lyrics Akordi

Ceca Ko Na Grani Jabuka Tekst

Klavijatura Solo:
Am F G C
---------------------------------7-----------
--10-10-8-------------10-10-8-10---10-8------
----------10-9-7-9----------------------10-9-
7-------------------7------------------------
---------------------------------------------
---------------------------------------------
Dm Am G F Am
-----------------------------------------------
-----------------------------------------------
7-10-9-10-----9-7-9-----7-9-------7---------7--
-----------10--------10------9-10----10-9-7---7
-----------------------------------------------
-----------------------------------------------
Gitara Solo:
Dm Am G F Am
-------------------------------------------------------
---10--------------------------------------------------
10----12-10--9-12-10-9--------9------------------------
------------------------10-12----9-10-12--10-9----12---
-----------------------------------------------12----12
-------------------------------------------------------
1STROFA:
Am
Da sam pio,pio sam
Am C G C
sve sam reke popio
C F Am
preslo mi u naviku
Am C G Dm Am)
od kad sam te ja izgubio )2x
2STROFA:
Am
da sam krala,krala sam
Am C G C
sve sam zvezde pokrala
C F Am
preslo mi u naviku
Am C G Dm Am) Am,G,C,Am.
od kad sam bez tebe ostala)2x
REFREN:2x
Dm Am
Ko na grani jabuka
F G C
u mom telu zri
Dm Am
jedan zivot jedna mladost
F G Am
cvet bez ljubavi
SOLO:
1STROFA:
2STROFA:
REFREN:4X

Tekstovi Pesama Ceca Akordi

Moj Je Zivot Mrtvo More

Pazi s kim spavas

Pustite me da ga vidim

Sheet Music Plus Homepage

Zeljko Samardzic

Galija | Starogradske pesme

Travel, Phones, Music