Vrzic.com

Bajaga Tekstovi Pesama



Find us on Twitter

Tekstovi Pesama Bajaga Lyrics Akordi

The iPad in the Music Studio
Bajaga Lyrics Akordi

Sheet Music Plus Guitar Tabs

Bajaga Pada vlada Tekst

Pada vlada-Bajaga


G  G7 Cm        F       B
ja te pratim, u ruci mi strela,
Cm           Gm
cas te vidim,cas nestanes,
A           D7
senka ti je bela.

Jedne noci,tamne noci bez meseca,
ja cu tebe sresti draga,
ubit' cu te kao zeca...

G           G7       Cm
pada zvezda padalica,pada soko' siva ptica
F                        B             G7
pada osmeh sa mog lica,i sneg pada pre bozica,
Cm                    Gm
pada covek posle pica,pada dusa od umora,
A           D7
i noc padne kad je zora...

pada,pada,pada,pada,sta to pada?...pada vlada!,
vec su mnoge pale vlasti,pa ces i ti dragi pasti,
pada,pada,pada,pada,...pada,pada,pada,pada,
sta to pada?...pada vlada

Solo:
e|------------------------|----------8----------------------------|--------------------|
h|--7h8-------------------|------------10-8-----------------------|----------10-8------|
g|------7h8-----------7-8-|-7-8-9-10--------10-8-7-6-7-6-7-8-9-10-|-10-8-7h8------8----|
D|----------9h10-9-10-----|---------------------------------------|-----------------10-|
A|------------------------|---------------------------------------|--------------------|
E|------------------------|---------------------------------------|--------------------|

e|--------------------|-------------------|--10-8-7------------------------|
h|-----------10-8-----|---11-10-8-7-----7-|---------9-8--------------------|
g|----------------8---|-------------7-9---|-------------10-8-7---------7-8-|
D|--10-8-7h8--------8-|-7-----------------|--------------------10-9-10-----|
A|--------------------|-------------------|--------------------------------|
E|--------------------|-------------------|--------------------------------|

e|----------8----------------------------|------------------------|
h|------------10-8-----------------------|----------10-8----------|
g|-7-8-9-10--------10-8-7-6-7-6-7-8-9-10-|-10-8-7-8------8--------|
D|---------------------------------------|-----------------10-----|
A|---------------------------------------|------------------------|
E|---------------------------------------|------------------------|

e|--------------------|-------------------||
h|-----------10-8-----|---11-10-8-7-----7-||
g|----------------8---|-------------7-9---||
D|--10-8-7-8--------8-|-7-----------------||
A|--------------------|-------------------||
E|--------------------|-------------------||

Tekstovi Pesama Bajaga Akordi

Mali slonovi

Mali svira gitaru

Marlena

Model 1960 Es Ef Er Jot

Sheet Music Plus Homepage

Toma Zdravkovic

Galija

Starogradske pesme

Travel,Phones,Music