Vrzic.com

Bajaga Tekstovi Pesama



Find us on Twitter

Tekstovi Pesama Bajaga Lyrics Akordi

The iPad in the Music Studio
Bajaga Lyrics Akordi

Sheet Music Plus Guitar Tabs

Bajaga Daljina, dim i prasina Tekst

Uvod:
e-----0-2------0-2-0---------3------0-2--5-5-5-5-3-2-0----
B---3--------3-------3-2-0---3----3--------------------3~-
G-2--------2-----------------0--2-------------------------
D----------------------------0----------------------------
A----------------------------2----------------------------
E--------------------------3-3----------------------------


  Dsus2                 A                       G
  Mislio sam idem negde sada vidim is`o sam u krug.
e------------0---------------------0---------------3--------3----
B------3--------3-----3-------2-------2-----2-----0-0-0----0-0---
G---2-----2--------2-------2-----2-------2-------0---0----0---0--
D-0------------------------------------------------------------0-
A-----------------------0----------------------------------------
E---------------------------------------------3---------3--------
  G                      A                      Dsus2  Dsus4 D
  Mislio sam nisam duzan al sad vidim imam neki dug.
e------------3-----------------------0--------------0----3---2---
B------0--------0-----0--------2--------2-----2----3--3---3---3--
G---0-----0--------0--------2-----2--------2------2----2---2---2-
D------------------------------------------------0---------------
A------------------------0---------------------------------------
E-3--------------------------------------------------------------


Dsus2
Mislio sam idem negde
A                     G
sada vidim is`o sam u krug.
G
Mislio sam nisam duzan
A                      Dsus2 Dsus4 D
al sad vidim imam neki dug.


Poneo sam gromobrane
ako bude oluja i grad.
Poneo sam padobrane
ako treba da ublaze pad.


Ref:


A
Kada krenes i kad ne znas
kol`ko traje let,
G
koliko je dana dosta
da upoznas svet.
Dsus2      A         Dsus2  Dsus4 D   
   Daljina,    dim i prasina.
e----0-------0----------0----3---2-----
B---3-2-2---2-2-2------3--3----3---2---
G--2---3---2---2------2----2----2---2--
D-0------------------0-----------------
A---------0----------------------------
E--------------------------------------


A
Isao sam drumovima
kroz javu i san,
G
sretao sam dobre ljude
skoro svaki dan.
Daljina, dim i prasina. X2


Mislio sam radim nesto
i to bi me umirilo skroz.
Mislio sam cekam tramvaj
kad od nekud stize brzi voz.


Mislio sam idem negde
sada vidim iso sam u krug.
Mislio sam nisam duzan
al sad vidim imam neki dug.


Ref:


Kada krenes i kad ne znas
kol`ko traje let,
koliko je dana dosta
da upoznas svet.
Daljina, dim i prasina.


Isao sam drumovima
kroz javu i san,
sretao sam dobre ljude
skoro svaki dan.
Daljina, dim i prasina.


hvatanje akorda:
Dsus2 xx0230
Dsus4 xx0233

Tekstovi Pesama Bajaga Akordi

Jedino to se zove ljubav

Jos jednom

Jos te volim

Sheet Music Plus Homepage

Toma Zdravkovic

Galija

Starogradske pesme

Travel,Phones,Music