Vrzic.com

B. B. King Lyrics



Find us on Twitter

Lyrics B. B. King

B.B. King

Nobody Loves Me But My Mother

Something You Got Lyrics

Akordi/Tab:
Chords progression used:
F - Bb

Bridge:
Eb-D-C#-C

E-----6-b8-6--8------------------------------------------/6-----------|
B-6-8----------------b8d8-p6-8-6-8------b8d8-p6-8-6---------8---------|
G-------------------------------------------------------------6-------|
D---------------------------------------------------------------8-----|
A---------------------------------------------------------------------|
E---------------------------------------------------------------------|

E-----11-13-------------b8-8p6--------b8-8p6---6-----b8d-p6---6-8---6-|
B-b13-------b13-11-------------8~------------8--------------8-----8---|
G---------------------------------------------------------------------|
D---------------------------------------------------------------------|
A---------------------------------------------------------------------|
E---------------------------------------------------------------------|

E-b13--------------b8d8p6---b8-6-6/-----b8d8p6---6-8-6/---------------|
B-----14p13p11~-----------8--------------------8----------------------|
G---------------------------------------------------------------------|
D---------------------------------------------------------------------|
A---------------------------------------------------------------------|
E---------------------------------------------------------------------|

SAX-SOLO

E-b9-11-b11-11-b9-b9-------9-10/-----b13-13-11-13------------------13-13-13-|
B--------------------11-11-----------------------b13d13p11----13---13-13-13-|
G----------------------------------------------------------12---------------|
D---------------------------------------------------------------------------|
A---------------------------------------------------------------------------|
E---------------------------------------------------------------------------|


E-------------------------------------13---------------------------|
B-b13-b13-11-11-13-13-------11----11--13--11-11--b14-b13/---8-8-8/-|
G------------------------12----12----------------------------------|
D------------------------------------------------------------------|
A------------------------------------------------------------------|
E------------------------------------------------------------------|

B. B. King Lyrics

B.B. King Anthology

B.B. King - The Definitive Collection

B.B. King Anthology

B.B. King Anthology

Make Love to Me

My Babys Comin Home

Sweet Sixteen

Sheet Music Plus Homepage

Electric Blues Guitar

Delta Blues

Sheet Music Bob Dylan

System of a Down

Travel, Phones, Music